Strojenie Gitary

W tym artykule postaram się przybliżyć najprostrze i najlepsze metody strojenia gitary.

Wielu muzyków korzystka z stroików elektrycznych. Niestety używając ich w pewnym stopniu

ograniczamy rozwój swojego słuchu. Naturalnie stroiki elektrczyne też są potrzebne. Na próbie zespołu,

gdzie nie słychać dokładnie brzdękania czy choćby na występie właściwym ; dzięki tej

zabawce możemy szybko nastroić gitare. Ale jeśli nie masz zielonego pojęcia jak używa się

stroika elektrczynego to tutaj możesz się dowiedzieć ;)

Używanie Stroika Elektrycznego

Jeśli mamy gitare która ma wejście na "jacka" przy użyciu kabla 2x jack podpinamy gitare do stroika;

jeśli nie szukamy cichego miejsca i ustawiamy stroik w miare blisko gitary.

Każdą strune stroimy osobno :)

Jeśli stroimy według standarowego stroju wygląda to tak:

Pierwsza od dołu najcięsza struna E1 wykrecamy klucze tak aby na stroiku pokazało się E

Analogicznie druga struna idąc od dołu w góre H2 stroimy do H

Kolejno G, D, A , E

Strojenie ze słuchu

Każdy gitarzysta powinien potrafić nastroić swój instrument ze słuchu. Jeśli ty tego nie potrafisz

radzimy ćwicz ta umiejętność gdyż bardzo rozwija ona słuch. Zacznijmy od najpopularniejszej

metody strojenia gitary

Zaczynamy od E1 wydobywamy z tej struny dzwięk i porównujemy go z dziękiem struny H2 na 5 progu.

Muszą brzmieć one identycznie. Tak samo według tej tabulatury czynimy dalej.

 

E1[---0-------------------------------------------

H2[---5--------0---------------------------------

G3[-------------4-------0------------------------

D4[----------------------5--------0--------------

A5[--------------------------------5------0------

E6[----------------------------------------5------

Można także stoić gitare sprawdzając czy między dzwiękami na sąsiednich strunach jest interwał oktawa.

Oto tabulatura której należy używać przy tej metodzie strojenia:

E1[-----7-------------------------------------------

H2[-----0-------8----------------------------------

G3[--------------0-------7-------------------------

D4[-----------------------0--------7---------------

A5[---------------------------------0-------7------

E6[------------------------------------------0------

Sprawdzamy czy gitara stroi grająć akord E-dur.



Chwyty na gitare

Logowanie

Nawigacja

Nowi użytkownicy

  • KarenHeade
  • Whottebartoca
  • timburkett605036
  • LigTriakDar
  • Sanio1910PL

Kto przegląda

W tej chwili stronę przegląda 0 użytkowników i 2 gości.