Podstawowe akordy

Podstawowe akordy

W tym artykule podam podstaowe akordy od których najlepiej
i najłatwiej rozpocząć nauke gry na gitarze

Cyfry odpowiadają poszczegolnym palcą:

1- palec wskazujący
2- palec środkowy
3- palec serdeczny
4- palec mały

1....2....3....4 - progi

a-moll
...... 1......... 2........ 3.........4
E |-------||-------||-------||-------|
H |---1-- ||-------||-------||-------|
G |-------||---2---||-------||-------|
D |-------||---3---||-------||-------|
A |-------||-------||-------||-------|
E |-------||-------||-------||-------|
A-dur
...... 1......... 2........ 3.........4
E |-------||-------||-------||-------|
H |------ ||----4--||-------||-------|
G |-------||---3---||-------||-------|
D |-------||---2---||-------||-------|
A |-------||-------||-------||-------|
E |-------||-------||-------||-------|
e-moll
...... 1......... 2........ 3.........4
E |-------||-------||-------||-------|
H |------ ||-------||-------||-------|
G |-------||-------||-------||-------|
D |-------||---3---||-------||-------|
A |-------||---2---||-------||-------|
E |-------||-------||-------||-------|
E-dur
...... 1......... 2........ 3.........4
E |-------||-------||-------||-------|
H |------ ||-------||-------||-------|
G |---1---||---3---||-------||-------|
D |-------||---2---||-------||-------|
A |-------||-------||-------||-------|
E |-------||-------||-------||-------|
C-dur
...... 1......... 2........ 3.........4
E |-------||-------||-------||-------|
H |---1-- ||-------||-------||-------|
G |-------||-------||-------||-------|
D |-------||---2---||-------||-------|
A |-------||-------||---3---||-------|
E |-------||-------||-------||-------|
G-dur
...... 1......... 2........ 3.........4
E |-------||-------||---4---||-------|
H |------ ||-------||-------||-------|
G |-------||-------||-------||-------|
D |-------||-------||-------||-------|
A |-------||---1---||-------||-------|
E |-------||-------||----2--||-------|

 

d-moll
...... 1......... 2........ 3.........4
E |---1---||-------||-------||-------|
H |------ ||-------||---3---||-------|
G |-------||---2---||-------||-------|
D |-------||-------||-------||-------|
A |-------||-------||-------||-------|
E |-------||-------||-------||-------|

 

D-dur
...... 1......... 2........ 3.........4
E |-------||---2---||-------||-------|
H |------ ||-------||---3---||-------|
G |-------||---1---||-------||-------|
D |-------||-------||-------||-------|
A |-------||-------||-------||-------|
E |-------||-------||-------||-------|
F-dur
...... 1......... 2........ 3.........4
E |---1---||-------||-------||-------|
H |---1-- ||-------||-------||-------|
G |-------||---2---||-------||-------|
D |-------||-------||---4---||-------|
A |-------||-------||---3---||-------|
E |---1---||-------||-------||-------|

 

 




Chwyty na gitare

Logowanie

Nawigacja

Nowi użytkownicy

  • valenciazsj19335
  • jonathon17g8861
  • Ralphbraig
  • carmonpumphrey31102
  • calebcrouch4017

Kto przegląda

W tej chwili stronę przegląda 0 użytkowników i 1 gość.