Czytanie tabulatury

 
 
CZYTANIE TABULATURY
 
Tabulatura jest to graficzny zapis dzięków.
 
E1|-------------------------------------------------
B2|-------------------------------------------------
G3|-------------------------------------------------
D4|-------------------------------------------------
A5|--1----------------------------------------------
E6|-------------------------------------------------
Każda linia odpowiada jednej strunie. Od najcięszej do najgrubszej. Cyfra oznacza próg, na którym
należy przycisnąć strune. Progi liczymy od końca gryfu.
 
E|--------------------------------------------------
B|-----0------------1-------------------------------
G|----------2---------------------------------------
D|--------------------------------------------------
A|--------------------------------------------------
E|--------------------------------------------------
Cyfra zero oznacza uderzenie pustej struny.
 
E|--------------------------------------------------
B|---------6h8-------------------------------------
G|----------------5h6------------------------------
D|--------------------------------------------------
A|--------------------------------------------------
E|--------------------------------------------------
W tym przypadku mamy do czynienia z techniką zwaną hammer-on. Polega ona na uderzeniu struny (pierwszy dzwięk)
i naciśnieciu za pomocą lewej reki struny bez używania prawej ręki tak aby wydobyć dzwięk (zapisany w tab po h)
 
E|--------------------------------------------------
B|---------6p5-------------------------------------
G|----------------8p7------------------------------
D|--------------------------------------------------
A|--------------------------------------------------
E|--------------------------------------------------
Kolejną techniką jest pull-of. Polega ona na uderzeniu struny (pierwszy dzwięk) i wydobycia drugiego dzwięku dzięki oderwaniu
palca lewej ręki bez używania prawej ręki.
 
 
E|--------------------------------------------------
B|--------------------------------------------------
G|---------------5-T-8----------------------------
D|--------------------------------------------------
A|--------------------------------------------------
E|--------------------------------------------------
W tym zapisie mamy do czynienia z technika zwaną tapping. Wytłumacze ją na tym przykładzie. Lewą reką przyciskamy próg
przed literą T zaś prawą ręką uderzamy próg zaznaczony po T np. w tym przypadku 8 ; tak aby wydobyć dzwięk
 
E|--------------------------------------------------
B|-----------------X-------------------------------
G|-----------------X-------------------------------
D|-----------------X-------------------------------
A|--------------------------------------------------
E|--------------------------------------------------
Tłumione struny; technikę wykonujemy lewą reką naciśkająć, ale nie dociskając strun
^^^^^^^^^^^^^^^^^^^^^^^^^^^^^^^^^
E|--------------------------------------------------
B|----------------------5---------------------------
G|---------------5-----------7---------------------
D|--------------------------------------------------
A|--------------------------------------------------
E|--------------------------------------------------
Vibrato energiczne podciąganie i opuszczanie struny
 
E----------------------------------------------------
B---------------5/8----------------------------------Slide up przejechanie w góre po strunie w tym przypadku z progu 5 na 8
G-------------------------------7\5----------------- Slide down przejechanie w dół po strunie w tym przypadku z progu 7 na 5
D----------------------------------------------------
A----------------------------------------------------
E-------------------------\8------------------------- W tyn przypadku slide wykonujemy z dowolnego progu
 
 

E--------------------------------------------------
H--------------------------------------------------
G-------------------8^10-------------------------- lub --8b10---
D--------------------------------------------------
A---------------------------------------------------
E---------------------------------------------------
Bend. Strunę G na ósmym progu uderzamy, a następnie podczas trwania dźwięku podciągamy ją tak aby uzyskać dźwięk z progu dziesiątego
 
 
 



Chwyty na gitare

Logowanie

Nawigacja

Nowi użytkownicy

  • carolstuckeylkqdqxuk
  • agata kasjan
  • rorypalafoxgdcqxkm
  • 0rockluki0
  • styczen3101

Kto przegląda

W tej chwili stronę przegląda 0 użytkowników i 1 gość.