Skale Modalne

Oto 7 skal modalnych w tonacji G-dur.
Przestawione w bardzo czytelny sposób.
(Tabulatury )

Jońska
E|-----------------------------------------------------------------------------5-----7-----8-
H|--------------------------------------------------------------5---7---8--------------------
G|--------------------------------------------------4---5--7---------------------------------
D|----------------------------------4---5---7------------------------------------------------
A|------------------3----5 --7---------------------------------------------------------------
E|----3---5--7-------------------------------------------------------------------------------

Dorycka
E|---------------------------------------------------------------------------7----8----10---
H|----------------------------------------------------------------7----8----10--------------
G|--------------------------------------------------5---7----9-------------------------------
D|-----------------------------------5---7----9-----------------------------------------------
A|-------------------5 --7---9----------------------------------------------------------------
E|-------5--7--8-----------------------------------------------------------------------------
Frygijska
E|-------------------------------------------------------------------------------8----10---12-
H|------------------------------------------------------------------8----10---12---------------
G|-------------------------------------------------7----9----11--------------------------------
D|--------------------------------7----9---10--------------------------------------------------
A|------------------7---9---10-----------------------------------------------------------------
E|-----7--8--10--------------------------------------------------------------------------------
Lidyjska

E|-----------------------------------------------------------------------------------10---12---14-
H|----------------------------------------------------------------------10---12----13-------------
G|-----------------------------------------------------9----11---12-------------------------------
D|-------------------------------------9---10---12------------------------------------------------
A|-------------------9---10---12------------------------------------------------------------------
E|----8--10---12----------------------------------------------------------------------------------
Miksolidyjska
E|------------------------------------------------------------------------------------12---14--15--
H|-------------------------------------------------------------------------12----13----15-----------
G|--------------------------------------------------------11---12- 14------------------------------
D|---------------------------------------10---12--14-----------------------------------------------
A|----------------------10---12--14----------------------------------------------------------------
E|-----10---12---14--------------------------------------------------------------------------------
Eolska
E|-------------------------------------------------------------------------------------14--15--17-
H|------------------------------------------------------------------------13----15--17------------
G|-------------------------------------------------------12--14---16-----------------------------
D|----------------------------------------12--14--16----------------------------------------------
A|-----------------------12--14---15--------------------------------------------------------------
E|-----12---14---15-------------------------------------------------------------------------------
Lorycka
E|--------------------------------------------------------------------------------------15--17-19
H|--------------------------------------------------------------------------15--17--19----------
G|---------------------------------------------------------14---16--17---------------------------
D|----------------------------------------14--16--17--------------------------------------------
A|-----------------------14---15--17------------------------------------------------------------
E|------14---15--17-----------------------------------------------------------------------------



Chwyty na gitare

Logowanie

Nawigacja

Nowi użytkownicy

  • Michaelatoge
  • shadferraro316461
  • NikolayBrike
  • chauhoare92754565
  • hermanwray97989

Kto przegląda

W tej chwili stronę przegląda 0 użytkowników i 0 gości.